  0
SECTION
  2
HEADER
  9
$ACADVER
  1
AC1009
  9
$INSBASE
 10
146.5956237689837
 20
491.0636268805029
 30
0.0
  9
$EXTMIN
 10
146.2304271919781
 20
491.0636268805029
 30
0.0
  9
$EXTMAX
 10
190.8040598346634
 20
524.7994051551631
 30
0.0
  9
$LIMMIN
 10
0.0
 20
0.0
  9
$LIMMAX
 10
410.0
 20
287.0
  9
$ORTHOMODE
 70
     1
  9
$REGENMODE
 70
     0
  9
$FILLMODE
 70
     1
  9
$QTEXTMODE
 70
     0
  9
$MIRRTEXT
 70
     0
  9
$DRAGMODE
 70
     2
  9
$LTSCALE
 40
1.0
  9
$OSMODE
 70
     0
  9
$ATTMODE
 70
     1
  9
$TEXTSIZE
 40
3.5
  9
$TRACEWID
 40
1.0
  9
$TEXTSTYLE
  7
STANDARD
  9
$CLAYER
  8
4AN
  9
$CELTYPE
  6
BYLAYER
  9
$CECOLOR
 62
   256
  9
$DIMSCALE
 40
1.0
  9
$DIMASZ
 40
3.5
  9
$DIMEXO
 40
0.1
  9
$DIMDLI
 40
7.0
  9
$DIMRND
 40
0.0
  9
$DIMDLE
 40
0.0
  9
$DIMEXE
 40
1.8
  9
$DIMTP
 40
0.0
  9
$DIMTM
 40
0.0
  9
$DIMTXT
 40
3.5
  9
$DIMCEN
 40
1.5
  9
$DIMTSZ
 40
0.0
  9
$DIMTOL
 70
     0
  9
$DIMLIM
 70
     0
  9
$DIMTIH
 70
     0
  9
$DIMTOH
 70
     0
  9
$DIMSE1
 70
     0
  9
$DIMSE2
 70
     0
  9
$DIMTAD
 70
     0
  9
$DIMZIN
 70
     0
  9
$DIMBLK
  1

  9
$DIMASO
 70
     1
  9
$DIMSHO
 70
     0
  9
$DIMPOST
  1

  9
$DIMAPOST
  1

  9
$DIMALT
 70
     0
  9
$DIMALTD
 70
     2
  9
$DIMALTF
 40
25.39999999999999
  9
$DIMLFAC
 40
1.0
  9
$DIMTOFL
 70
     0
  9
$DIMTVP
 40
0.0
  9
$DIMTIX
 70
     0
  9
$DIMSOXD
 70
     0
  9
$DIMSAH
 70
     0
  9
$DIMBLK1
  1

  9
$DIMBLK2
  1

  9
$DIMSTYLE
  2
*UNNAMED
  9
$DIMCLRD
 70
     0
  9
$DIMCLRE
 70
     0
  9
$DIMCLRT
 70
     0
  9
$DIMTFAC
 40
1.0
  9
$DIMGAP
 40
0.09
  9
$LUNITS
 70
     2
  9
$LUPREC
 70
     2
  9
$SKETCHINC
 40
1.0
  9
$FILLETRAD
 40
0.5
  9
$AUNITS
 70
     0
  9
$AUPREC
 70
     0
  9
$MENU
  1

  9
$ELEVATION
 40
0.0
  9
$PELEVATION
 40
0.0
  9
$THICKNESS
 40
0.0
  9
$LIMCHECK
 70
     0
  9
$BLIPMODE
 70
     0
  9
$CHAMFERA
 40
0.0
  9
$CHAMFERB
 40
0.0
  9
$SKPOLY
 70
     0
  9
$TDCREATE
 40
2449332.470967592
  9
$TDUPDATE
 40
2449394.636040972
  9
$TDINDWG
 40
0.0013579861
  9
$TDUSRTIMER
 40
0.0013579861
  9
$USRTIMER
 70
     1
  9
$ANGBASE
 50
0.0
  9
$ANGDIR
 70
     0
  9
$PDMODE
 70
     3
  9
$PDSIZE
 40
0.0
  9
$PLINEWID
 40
0.0
  9
$COORDS
 70
     2
  9
$SPLFRAME
 70
     0
  9
$SPLINETYPE
 70
     6
  9
$SPLINESEGS
 70
     8
  9
$ATTDIA
 70
     1
  9
$ATTREQ
 70
     1
  9
$HANDLING
 70
     0
  9
$HANDSEED
  5
4CFD
  9
$SURFTAB1
 70
     6
  9
$SURFTAB2
 70
     6
  9
$SURFTYPE
 70
     6
  9
$SURFU
 70
     6
  9
$SURFV
 70
     6
  9
$UCSNAME
  2

  9
$UCSORG
 10
0.0
 20
0.0
 30
0.0
  9
$UCSXDIR
 10
1.0
 20
0.0
 30
0.0
  9
$UCSYDIR
 10
0.0
 20
1.0
 30
0.0
  9
$PUCSNAME
  2

  9
$PUCSORG
 10
0.0
 20
0.0
 30
0.0
  9
$PUCSXDIR
 10
1.0
 20
0.0
 30
0.0
  9
$PUCSYDIR
 10
0.0
 20
1.0
 30
0.0
  9
$USERI1
 70
     0
  9
$USERI2
 70
     0
  9
$USERI3
 70
     0
  9
$USERI4
 70
     0
  9
$USERI5
 70
     0
  9
$USERR1
 40
0.0
  9
$USERR2
 40
0.0
  9
$USERR3
 40
0.0
  9
$USERR4
 40
0.0
  9
$USERR5
 40
0.0
  9
$WORLDVIEW
 70
     1
  9
$SHADEDGE
 70
     3
  9
$SHADEDIF
 70
    70
  9
$TILEMODE
 70
     1
  9
$MAXACTVP
 70
    16
  9
$PINSBASE
 10
0.0
 20
0.0
 30
0.0
  9
$PLIMCHECK
 70
     0
  9
$PEXTMIN
 10
1.000000000000000E+20
 20
1.000000000000000E+20
 30
1.000000000000000E+20
  9
$PEXTMAX
 10
-1.000000000000000E+20
 20
-1.000000000000000E+20
 30
-1.000000000000000E+20
  9
$PLIMMIN
 10
0.0
 20
0.0
  9
$PLIMMAX
 10
12.0
 20
9.0
  9
$UNITMODE
 70
     0
  9
$VISRETAIN
 70
     0
  9
$PLINEGEN
 70
     0
  9
$PSLTSCALE
 70
     0
  9
$TREEDEPTH
 70
  3020
  9
$DWGCODEPAGE
  3
undefined
  0
ENDSEC
  0
SECTION
  2
TABLES
  0
TABLE
  2
VPORT
 70
     2
  0
VPORT
  2
*ACTIVE
 70
     0
 10
0.0
 20
0.0
 11
1.0
 21
1.0
 12
169.8855044332974
 22
509.3205248588843
 13
0.0
 23
0.0
 14
1.0
 24
1.0
 15
10.0
 25
10.0
 16
0.0
 26
0.0
 36
1.0
 17
0.0
 27
0.0
 37
0.0
 40
36.51379595676294
 41
1.275675675675675
 42
50.0
 43
0.0
 44
0.0
 50
0.0
 51
0.0
 71
     0
 72
   100
 73
     1
 74
     0
 75
     0
 76
     0
 77
     0
 78
     0
  0
ENDTAB
  0
TABLE
  2
LTYPE
 70
     3
  0
LTYPE
  2
CONTINUOUS
 70
    64
  3
Ausgezogene Linie
 72
    65
 73
     0
 40
0.0
  0
LTYPE
  2
GEN
 70
    64
  3
----------------------
 72
    65
 73
     2
 40
10000000000.0
 49
0.0
 49
10000000000.0
  0
LTYPE
  2
GEN3A
 70
    64
  3
 - - - - -
 72
    65
 73
     2
 40
3.1
 49
2.5
 49
-0.6
  0
ENDTAB
  0
TABLE
  2
LAYER
 70
     6
  0
LAYER
  2
0
 70
     0
 62
     7
  6
GEN
  0
LAYER
  2
ITEM_GSTR
 70
    64
 62
     6
  6
GEN3A
  0
LAYER
  2
ITEM_50
 70
    64
 62
     7
  6
GEN
  0
LAYER
  2
ITEM_HILFE
 70
    64
 62
     3
  6
CONTINUOUS
  0
LAYER
  2
ITEM_25
 70
    64
 62
     3
  6
CONTINUOUS
  0
LAYER
  2
4AN
 70
     0
 62
     3
  6
CONTINUOUS
  0
ENDTAB
  0
TABLE
  2
STYLE
 70
     1
  0
STYLE
  2
STANDARD
 70
     0
 40
0.0
 41
1.0
 50
0.0
 71
     0
 42
3.5
  3
txt8
  4

  0
ENDTAB
  0
TABLE
  2
VIEW
 70
     0
  0
ENDTAB
  0
TABLE
  2
UCS
 70
     0
  0
ENDTAB
  0
TABLE
  2
APPID
 70
     1
  0
APPID
  2
ACAD
 70
    64
  0
ENDTAB
  0
TABLE
  2
DIMSTYLE
 70
     0
  0
ENDTAB
  0
ENDSEC
  0
SECTION
  2
BLOCKS
  0
ENDSEC
  0
SECTION
  2
ENTITIES
  0
POINT
  8
ITEM_HILFE
 10
163.5956237689838
 20
497.3636268805028
 30
0.0
  0
POINT
  8
ITEM_HILFE
 10
163.5956237689838
 20
522.4432921339821
 30
0.0
  0
POINT
  8
ITEM_HILFE
 10
184.2638935718972
 20
523.5432926536856
 30
0.0
  0
LINE
  8
ITEM_50
 10
158.5956237689838
 20
493.3636268805028
 30
0.0
 11
158.5956237689838
 21
491.9636268805029
 31
0.0
  0
LINE
  8
ITEM_50
 10
168.5956237689838
 20
493.3636268805028
 30
0.0
 11
168.5956237689838
 21
491.9636268805028
 31
0.0
  0
ARC
  8
ITEM_50
 10
159.0956237689838
 20
491.9636268805029
 30
0.0
 40
0.5
 50
180.0000000000001
 51
269.9999999999997
  0
ARC
  8
ITEM_50
 10
168.0956237689838
 20
491.9636268805028
 30
0.0
 40
0.5
 50
269.9999999999997
 51
0.0
  0
ARC
  8
ITEM_50
 10
168.0956237689838
 20
502.7636268805028
 30
0.0
 40
0.5
 50
0.0
 51
90.00000000000034
  0
ARC
  8
ITEM_50
 10
159.0956237689838
 20
502.7636268805028
 30
0.0
 40
0.5
 50
90.00000000000034
 51
180.0000000000001
  0
LINE
  8
ITEM_50
 10
159.0956237689838
 20
491.4636268805029
 30
0.0
 11
168.0956237689838
 21
491.4636268805028
 31
0.0
  0
LINE
  8
ITEM_50
 10
159.0956237689838
 20
503.2636268805028
 30
0.0
 11
168.0956237689838
 21
503.2636268805028
 31
0.0
  0
LINE
  8
ITEM_50
 10
168.5956237689838
 20
502.7636268805028
 30
0.0
 11
168.5956237689838
 21
501.3636268805028
 31
0.0
  0
LINE
  8
ITEM_50
 10
158.5956237689838
 20
502.7636268805028
 30
0.0
 11
158.5956237689838
 21
501.3636268805028
 31
0.0
  0
LINE
  8
ITEM_50
 10
158.7456237689838
 20
522.643292133982
 30
0.0
 11
146.5956237689838
 21
522.643292133982
 31
0.0
  0
LINE
  8
ITEM_50
 10
168.4456237689838
 20
522.643292133982
 30
0.0
 11
170.5956237689838
 21
522.643292133982
 31
0.0
  0
LINE
  8
ITEM_50
 10
165.578782063643
 20
517.243292133982
 30
0.0
 11
161.6124654743246
 21
517.243292133982
 31
0.0
  0
LINE
  8
ITEM_50
 10
168.5956237689838
 20
520.9432921339821
 30
0.0
 11
168.5956237689838
 21
522.4432921339821
 31
0.0
  0
LINE
  8
ITEM_50
 10
158.5956237689838
 20
520.9432921339821
 30
0.0
 11
158.5956237689838
 21
522.4432921339821
 31
0.0
  0
LINE
  8
ITEM_50
 10
158.5956237689838
 20
522.4432921339821
 30
0.0
 11
168.5956237689839
 21
522.4432921339821
 31
0.0
  0
LINE
  8
ITEM_50
 10
158.4456237689838
 20
491.3466268805028
 30
0.0
 11
168.7456237689838
 21
491.3466268805029
 31
0.0
  0
LINE
  8
ITEM_50
 10
158.4456237689838
 20
503.3806268805028
 30
0.0
 11
168.7456237689838
 21
503.3806268805029
 31
0.0
  0
LINE
  8
ITEM_50
 10
170.5956237689838
 20
503.6636268805028
 30
0.0
 11
170.5956237689837
 21
491.0636268805029
 31
0.0
  0
LINE
  8
ITEM_50
 10
146.5956237689837
 20
491.0636268805029
 30
0.0
 11
146.5956237689838
 21
503.6636268805028
 31
0.0
  0
LINE
  8
ITEM_50
 10
168.7456237689838
 20
503.6636268805028
 30
0.0
 11
168.7456237689838
 21
491.0636268805029
 31
0.0
  0
LINE
  8
ITEM_50
 10
158.4456237689838
 20
503.6636268805028
 30
0.0
 11
158.4456237689838
 21
491.0636268805029
 31
0.0
  0
LINE
  8
ITEM_50
 10
170.5956237689838
 20
501.3636268805028
 30
0.0
 11
168.4456237689838
 21
501.3636268805028
 31
0.0
  0
LINE
  8
ITEM_50
 10
170.5956237689838
 20
493.3636268805028
 30
0.0
 11
168.4456237689838
 21
493.3636268805028
 31
0.0
  0
LINE
  8
ITEM_50
 10
158.7456237689838
 20
501.3636268805028
 30
0.0
 11
146.5956237689838
 21
501.3636268805028
 31
0.0
  0
LINE
  8
ITEM_50
 10
158.7456237689838
 20
493.3636268805028
 30
0.0
 11
146.5956237689838
 21
493.3636268805028
 31
0.0
  0
LINE
  8
ITEM_50
 10
146.5956237689838
 20
503.6636268805028
 30
0.0
 11
158.4456237689838
 21
503.6636268805028
 31
0.0
  0
LINE
  8
ITEM_50
 10
146.5956237689837
 20
491.0636268805029
 30
0.0
 11
158.4456237689838
 21
491.0636268805029
 31
0.0
  0
LINE
  8
ITEM_50
 10
168.7456237689838
 20
491.0636268805029
 30
0.0
 11
170.5956237689837
 21
491.0636268805029
 31
0.0
  0
LINE
  8
ITEM_50
 10
168.7456237689838
 20
503.6636268805028
 30
0.0
 11
170.5956237689838
 21
503.6636268805028
 31
0.0
  0
LINE
  8
ITEM_50
 10
168.4456237689838
 20
501.3636268805028
 30
0.0
 11
168.4456237689838
 21
493.3636268805028
 31
0.0
  0
LINE
  8
ITEM_50
 10
158.7456237689838
 20
501.3636268805028
 30
0.0
 11
158.7456237689838
 21
493.3636268805028
 31
0.0
  0
LINE
  8
ITEM_50
 10
158.4456237689838
 20
520.9432921339821
 30
0.0
 11
168.7456237689838
 21
520.9432921339821
 31
0.0
  0
ARC
  8
ITEM_50
 10
156.5956237689838
 20
518.5432922652094
 30
0.0
 40
1.0
 50
269.9999955556995
 51
89.99999555569949
  0
LINE
  8
ITEM_50
 10
160.0039486419906
 20
515.7432926536856
 30
0.0
 11
151.2489238754872
 21
515.7432926536855
 31
0.0
  0
ARC
  8
ITEM_50
 10
151.2489238754872
 20
514.7432926536855
 30
0.0
 40
1.0
 50
90.0
 51
152.1818719379089
  0
LINE
  8
ITEM_50
 10
170.5956237689838
 20
515.7432926536855
 30
0.0
 11
167.1872988959769
 21
515.7432926536855
 31
0.0
  0
ARC
  8
ITEM_50
 10
192.2318989929342
 20
528.716078667302
 30
0.0
 40
16.0
 50
206.9059740007124
 51
229.3259324104685
  0
ARC
  8
ITEM_50
 10
176.2958889350047
 20
528.7160799034213
 30
0.0
 40
16.0
 50
310.6740620605258
 51
333.0940166590408
  0
LINE
  8
ITEM_50
 10
180.2638935718973
 20
523.543293274227
 30
0.0
 11
188.2638935718972
 21
523.5432920331442
 31
0.0
  0
LINE
  8
ITEM_50
 10
178.1638934568108
 20
522.5432926536856
 30
0.0
 11
179.2638935718972
 21
522.5432926536856
 31
0.0
  0
ARC
  8
ITEM_50
 10
179.2638935718972
 20
523.5432926536856
 30
0.0
 40
1.0
 50
270.0
 51
0.0
  0
LINE
  8
ITEM_50
 10
177.9638934568108
 20
522.3432926728667
 30
0.0
 11
177.9638933735978
 21
521.475635611343
 31
0.0
  0
ARC
  8
ITEM_50
 10
178.1638934568108
 20
522.3432926536856
 30
0.0
 40
0.2
 50
90.0
 51
179.9999945050309
  0
ARC
  8
ITEM_50
 10
190.3638934570545
 20
522.3432914848802
 30
0.0
 40
0.2
 50
359.9999945166718
 51
89.99998902170283
  0
LINE
  8
ITEM_50
 10
190.5638934570545
 20
522.3432914657398
 30
0.0
 11
190.5638933740179
 21
521.4756344042161
 31
0.0
  0
ARC
  8
ITEM_50
 10
189.2638935718971
 20
523.5432916956484
 30
0.0
 40
1.0
 50
179.9999890217028
 51
269.9999890217027
  0
LINE
  8
ITEM_50
 10
190.363893495376
 20
522.5432914848802
 30
0.0
 11
189.2638933802896
 21
522.5432916956484
 31
0.0
  0
LINE
  8
ITEM_50
 10
179.1223609150752
 20
519.5432922103325
 30
0.0
 11
189.4054267060539
 21
519.5432930079662
 31
0.0
  0
LINE
  8
ITEM_50
 10
180.7790021690557
 20
517.5432923388343
 30
0.0
 11
187.7487850804038
 21
517.5432928794643
 31
0.0
  0
ARC
  8
ITEM_50
 10
184.2638935718972
 20
516.1432926536855
 30
0.0
 40
2.0
 50
188.0907127405016
 51
351.9092969337663
  0
ARC
  8
ITEM_50
 10
181.2937541203473
 20
515.7210703919006
 30
0.0
 40
1.0
 50
8.090712740500009
 51
59.33206319468306
  0
ARC
  8
ITEM_GSTR
 10
184.2638934029163
 20
519.7432926536855
 30
0.0
 40
4.0
 50
228.3943069246062
 51
311.5818468091994
  0
ARC
  8
ITEM_50
 10
187.2340330947383
 20
515.7210708934021
 30
0.0
 40
1.0
 50
120.6679673240201
 51
171.9092969337663
  0
LINE
  8
ITEM_50
 10
158.4456237689838
 20
522.4432921339821
 30
0.0
 11
158.4456237689838
 21
520.9432921339821
 31
0.0
  0
LINE
  8
ITEM_50
 10
158.4456237689838
 20
522.4432921339821
 30
0.0
 11
158.7456237689838
 21
522.643292133982
 31
0.0
  0
LINE
  8
ITEM_50
 10
168.7456237689838
 20
522.4432921339821
 30
0.0
 11
168.7456237689838
 21
520.9432921339821
 31
0.0
  0
LINE
  8
ITEM_50
 10
168.7456237689838
 20
522.4432921339821
 30
0.0
 11
168.4456237689838
 21
522.643292133982
 31
0.0
  0
LINE
  8
ITEM_50
 10
156.5956238465514
 20
519.5432922652094
 30
0.0
 11
146.5956237689838
 21
519.5432930408862
 31
0.0
  0
LINE
  8
ITEM_50
 10
158.4456237689838
 20
523.543292133982
 30
0.0
 11
158.7456237689838
 21
522.643292133982
 31
0.0
  0
LINE
  8
ITEM_50
 10
168.4456237689838
 20
522.643292133982
 30
0.0
 11
168.7456237689838
 21
523.543292133982
 31
0.0
  0
LINE
  8
ITEM_50
 10
156.5956236914161
 20
517.5432922652094
 30
0.0
 11
146.5956237689838
 21
517.5432930408862
 31
0.0
  0
ARC
  8
ITEM_50
 10
148.5956237689838
 20
516.1432921339821
 30
0.0
 40
2.0
 50
180.0
 51
332.1818719379095
  0
LINE
  8
ITEM_50
 10
168.7456237689838
 20
523.543292133982
 30
0.0
 11
170.5956237689838
 21
523.543292133982
 31
0.0
  0
LINE
  8
ITEM_50
 10
146.5956237689838
 20
519.5432930408862
 30
0.0
 11
146.5956237689838
 21
523.543292133982
 31
0.0
  0
LINE
  8
ITEM_50
 10
170.5956237689838
 20
523.543292133982
 30
0.0
 11
170.5956237689838
 21
515.7432926536855
 31
0.0
  0
LINE
  8
ITEM_50
 10
146.5956237689838
 20
523.543292133982
 30
0.0
 11
158.4456237689838
 21
523.543292133982
 31
0.0
  0
LINE
  8
ITEM_50
 10
146.5956237689838
 20
516.1432921339821
 30
0.0
 11
146.5956237689838
 21
517.5432930408862
 31
0.0
  0
ARC
  8
ITEM_50
 10
163.5956237689838
 20
513.5042202261508
 30
0.0
 40
4.232443213276208
 50
31.93966795768637
 51
148.0603320423134
  0
ARC
  8
ITEM_25
 10
163.5956237689838
 20
497.3636268805028
 30
0.0
 40
2.999999999999999
 50
80.99999999999977
 51
9.000000000000204
  0
CIRCLE
  8
ITEM_50
 10
163.5956237689838
 20
497.3636268805028
 30
0.0
 40
2.46
  0
ENDSEC
  0
EOF
